ISO-10303-21;
HEADER;
FILE_DESCRIPTION (( 'STEP AP203' ),
    '1' );
FILE_NAME ('Q-OZHWP-R2-25.4-780-M.STEP',
    '2020-12-22T09:19:32',
    ( '' ),
    ( '' ),
    'SwSTEP 2.0',
    'SolidWorks 2020',
    '' );
FILE_SCHEMA (( 'CONFIG_CONTROL_DESIGN' ));
ENDSEC;

DATA;
#1 = COORDINATED_UNIVERSAL_TIME_OFFSET ( 8, 0, .AHEAD. ) ;
#2 = SHAPE_DEFINITION_REPRESENTATION ( #141, #143 ) ;
#3 = AXIS2_PLACEMENT_3D ( 'NONE', #41, #114, #102 ) ;
#4 = DATE_TIME_ROLE ( 'creation_date' ) ;
#5 = APPROVAL_STATUS ( 'not_yet_approved' ) ;
#6 = PERSON_AND_ORGANIZATION_ROLE ( 'classification_officer' ) ;
#7 = CC_DESIGN_PERSON_AND_ORGANIZATION_ASSIGNMENT ( #64, #46, ( #113 ) ) ;
#8 = CC_DESIGN_APPROVAL ( #25, ( #19 ) ) ;
#9 = EDGE_LOOP ( 'NONE', ( #135, #154, #20, #18 ) ) ;
#10 = DIRECTION ( 'NONE',  ( -1.000000000000000000, -0.000000000000000000, -0.000000000000000000 ) ) ;
#11 =( GEOMETRIC_REPRESENTATION_CONTEXT ( 3 ) GLOBAL_UNCERTAINTY_ASSIGNED_CONTEXT ( ( #120 ) ) GLOBAL_UNIT_ASSIGNED_CONTEXT ( ( #62, #24, #14 ) ) REPRESENTATION_CONTEXT ( 'NONE', 'WORKASPACE' ) );
#12 = VERTEX_POINT ( 'NONE', #70 ) ;
#13 = APPROVAL ( #85, 'UNSPECIFIED' ) ;
#14 =( NAMED_UNIT ( * ) SI_UNIT ( $, .STERADIAN. ) SOLID_ANGLE_UNIT ( ) );
#15 = APPROVAL_DATE_TIME ( #80, #13 ) ;
#16 = CC_DESIGN_APPROVAL ( #39, ( #65 ) ) ;
#17 = PERSON_AND_ORGANIZATION ( #58, #27 ) ;
#18 = ORIENTED_EDGE ( 'NONE', *, *, #36, .F. ) ;
#19 = PRODUCT_DEFINITION ( 'UNKNOWN', '', #125, #30 ) ;
#20 = ORIENTED_EDGE ( 'NONE', *, *, #106, .T. ) ;
#21 = ORIENTED_EDGE ( 'NONE', *, *, #59, .F. ) ;
#22 = LINE ( 'NONE', #157, #156 ) ;
#23 = DIRECTION ( 'NONE',  ( 0.000000000000000000, 0.000000000000000000, 1.000000000000000000 ) ) ;
#24 =( NAMED_UNIT ( * ) PLANE_ANGLE_UNIT ( ) SI_UNIT ( $, .RADIAN. ) );
#25 = APPROVAL ( #5, 'UNSPECIFIED' ) ;
#26 = DIRECTION ( 'NONE',  ( 0.000000000000000000, 0.000000000000000000, -1.000000000000000000 ) ) ;
#27 = ORGANIZATION ( 'UNSPECIFIED', 'UNSPECIFIED', '' ) ;
#28 = PERSON_AND_ORGANIZATION_ROLE ( 'design_supplier' ) ;
#29 = CALENDAR_DATE ( 2020, 22, 12 ) ;
#30 = DESIGN_CONTEXT ( 'detailed design', #153, 'design' ) ;
#31 = EDGE_CURVE ( 'NONE', #123, #60, #169, .T. ) ;
#32 = COORDINATED_UNIVERSAL_TIME_OFFSET ( 8, 0, .AHEAD. ) ;
#33 = ORIENTED_EDGE ( 'NONE', *, *, #106, .F. ) ;
#34 = ADVANCED_FACE ( 'NONE', ( #89 ), #136, .F. ) ;
#35 = DIRECTION ( 'NONE',  ( 0.000000000000000000, 0.000000000000000000, 1.000000000000000000 ) ) ;
#36 = EDGE_CURVE ( 'NONE', #48, #12, #110, .T. ) ;
#37 = DIRECTION ( 'NONE',  ( -1.000000000000000000, -0.000000000000000000, -0.000000000000000000 ) ) ;
#38 = DIRECTION ( 'NONE',  ( -1.000000000000000000, -0.000000000000000000, -0.000000000000000000 ) ) ;
#39 = APPROVAL ( #132, 'UNSPECIFIED' ) ;
#40 = CC_DESIGN_APPROVAL ( #13, ( #125 ) ) ;
#41 = CARTESIAN_POINT ( 'NONE',  ( 3.000000000000001776, 0.000000000000000000, 0.000000000000000000 ) ) ;
#42 = DATE_AND_TIME ( #162, #98 ) ;
#43 = AXIS2_PLACEMENT_3D ( 'NONE', #159, #76, #116 ) ;
#44 = APPROVAL_DATE_TIME ( #134, #25 ) ;
#45 = DATE_AND_TIME ( #79, #170 ) ;
#46 = PERSON_AND_ORGANIZATION_ROLE ( 'design_owner' ) ;
#47 = ORIENTED_EDGE ( 'NONE', *, *, #51, .T. ) ;
#48 = VERTEX_POINT ( 'NONE', #90 ) ;
#49 = CARTESIAN_POINT ( 'NONE',  ( 0.000000000000000000, 0.000000000000000000, 0.000000000000000000 ) ) ;
#50 = CYLINDRICAL_SURFACE ( 'NONE', #43, 12.69999999999999929 ) ;
#51 = EDGE_CURVE ( 'NONE', #12, #48, #121, .T. ) ;
#52 = LOCAL_TIME ( 17, 19, 32.00000000000000000, #54 ) ;
#53 = CC_DESIGN_PERSON_AND_ORGANIZATION_ASSIGNMENT ( #69, #6, ( #65 ) ) ;
#54 = COORDINATED_UNIVERSAL_TIME_OFFSET ( 8, 0, .AHEAD. ) ;
#55 = APPLICATION_CONTEXT ( 'configuration controlled 3d designs of mechanical parts and assemblies' ) ;
#56 = APPROVAL_ROLE ( '' ) ;
#57 = APPROVAL_DATE_TIME ( #42, #39 ) ;
#58 = PERSON ( 'UNSPECIFIED', 'UNSPECIFIED', 'UNSPECIFIED', ('UNSPECIFIED'), ('UNSPECIFIED'), ('UNSPECIFIED') ) ;
#59 = EDGE_CURVE ( 'NONE', #60, #123, #71, .T. ) ;
#60 = VERTEX_POINT ( 'NONE', #112 ) ;
#61 = ORIENTED_EDGE ( 'NONE', *, *, #31, .F. ) ;
#62 =( LENGTH_UNIT ( ) NAMED_UNIT ( * ) SI_UNIT ( .MILLI., .METRE. ) );
#63 = MANIFOLD_SOLID_BREP ( 'Ðý×', #82 ) ;
#64 = PERSON_AND_ORGANIZATION ( #58, #27 ) ;
#65 = SECURITY_CLASSIFICATION ( '', '', #105 ) ;
#66 = COORDINATED_UNIVERSAL_TIME_OFFSET ( 8, 0, .AHEAD. ) ;
#67 = APPROVAL_PERSON_ORGANIZATION ( #17, #25, #56 ) ;
#68 = PERSON_AND_ORGANIZATION ( #58, #27 ) ;
#69 = PERSON_AND_ORGANIZATION ( #58, #27 ) ;
#70 = CARTESIAN_POINT ( 'NONE',  ( -3.000000000000001776, 0.000000000000000000, 12.69999999999999929 ) ) ;
#71 = CIRCLE ( 'NONE', #3, 12.69999999999999929 ) ;
#72 = CARTESIAN_POINT ( 'NONE',  ( 3.000000000000000888, 12.69999999999999929, 0.000000000000000000 ) ) ;
#73 = ORIENTED_EDGE ( 'NONE', *, *, #59, .T. ) ;
#74 = CARTESIAN_POINT ( 'NONE',  ( -3.000000000000000000, 1.555301434917138433E-15, -12.69999999999999929 ) ) ;
#75 = AXIS2_PLACEMENT_3D ( 'NONE', #72, #126, #155 ) ;
#76 = DIRECTION ( 'NONE',  ( -1.000000000000000000, -0.000000000000000000, -0.000000000000000000 ) ) ;
#77 = DIRECTION ( 'NONE',  ( 0.000000000000000000, 0.000000000000000000, 1.000000000000000000 ) ) ;
#78 = FACE_OUTER_BOUND ( 'NONE', #166, .T. ) ;
#79 = CALENDAR_DATE ( 2020, 22, 12 ) ;
#80 = DATE_AND_TIME ( #29, #52 ) ;
#81 = PERSON_AND_ORGANIZATION ( #58, #27 ) ;
#82 = CLOSED_SHELL ( 'NONE', ( #168, #158, #34, #148 ) ) ;
#83 = AXIS2_PLACEMENT_3D ( 'NONE', #49, #142, #130 ) ;
#84 = PERSON_AND_ORGANIZATION ( #58, #27 ) ;
#85 = APPROVAL_STATUS ( 'not_yet_approved' ) ;
#86 = CC_DESIGN_PERSON_AND_ORGANIZATION_ASSIGNMENT ( #84, #28, ( #125 ) ) ;
#87 = AXIS2_PLACEMENT_3D ( 'NONE', #129, #38, #23 ) ;
#88 = ORIENTED_EDGE ( 'NONE', *, *, #36, .T. ) ;
#89 = FACE_OUTER_BOUND ( 'NONE', #99, .T. ) ;
#90 = CARTESIAN_POINT ( 'NONE',  ( -3.000000000000001776, 1.555301434917138433E-15, -12.69999999999999929 ) ) ;
#91 = CARTESIAN_POINT ( 'NONE',  ( -3.000000000000000888, 12.69999999999999929, 0.000000000000000000 ) ) ;
#92 = DIRECTION ( 'NONE',  ( 0.000000000000000000, 0.000000000000000000, 1.000000000000000000 ) ) ;
#93 = LINE ( 'NONE', #74, #97 ) ;
#94 = AXIS2_PLACEMENT_3D ( 'NONE', #124, #10, #35 ) ;
#95 = APPROVAL_PERSON_ORGANIZATION ( #68, #39, #118 ) ;
#96 = DATE_AND_TIME ( #146, #151 ) ;
#97 = VECTOR ( 'NONE', #131, 1000.000000000000000 ) ;
#98 = LOCAL_TIME ( 17, 19, 32.00000000000000000, #117 ) ;
#99 = EDGE_LOOP ( 'NONE', ( #21, #61 ) ) ;
#100 = EDGE_CURVE ( 'NONE', #123, #48, #93, .T. ) ;
#101 = MECHANICAL_CONTEXT ( 'NONE', #55, 'mechanical' ) ;
#102 = DIRECTION ( 'NONE',  ( 0.000000000000000000, 0.000000000000000000, 1.000000000000000000 ) ) ;
#103 = CARTESIAN_POINT ( 'NONE',  ( -3.000000000000001776, 0.000000000000000000, 0.000000000000000000 ) ) ;
#104 = CARTESIAN_POINT ( 'NONE',  ( -3.000000000000001776, 0.000000000000000000, 0.000000000000000000 ) ) ;
#105 = SECURITY_CLASSIFICATION_LEVEL ( 'unclassified' ) ;
#106 = EDGE_CURVE ( 'NONE', #60, #12, #22, .T. ) ;
#107 = PERSON_AND_ORGANIZATION_ROLE ( 'creator' ) ;
#108 = PERSON_AND_ORGANIZATION_ROLE ( 'creator' ) ;
#109 = EDGE_LOOP ( 'NONE', ( #47, #88 ) ) ;
#110 = CIRCLE ( 'NONE', #150, 12.69999999999999929 ) ;
#111 = CC_DESIGN_DATE_AND_TIME_ASSIGNMENT ( #96, #4, ( #19 ) ) ;
#112 = CARTESIAN_POINT ( 'NONE',  ( 3.000000000000001776, 0.000000000000000000, 12.69999999999999929 ) ) ;
#113 = PRODUCT ( 'Q-OZHWP-R2-25.4-780-M', 'Q-OZHWP-R2-25.4-780-M', '', ( #101 ) ) ;
#114 = DIRECTION ( 'NONE',  ( -1.000000000000000000, -0.000000000000000000, -0.000000000000000000 ) ) ;
#115 = PRODUCT_RELATED_PRODUCT_CATEGORY ( 'detail', '', ( #113 ) ) ;
#116 = DIRECTION ( 'NONE',  ( 0.000000000000000000, 0.000000000000000000, 1.000000000000000000 ) ) ;
#117 = COORDINATED_UNIVERSAL_TIME_OFFSET ( 8, 0, .AHEAD. ) ;
#118 = APPROVAL_ROLE ( '' ) ;
#119 = CC_DESIGN_SECURITY_CLASSIFICATION ( #65, ( #125 ) ) ;
#120 = UNCERTAINTY_MEASURE_WITH_UNIT (LENGTH_MEASURE( 1.000000000000000082E-05 ), #62, 'distance_accuracy_value', 'NONE');
#121 = CIRCLE ( 'NONE', #163, 12.69999999999999929 ) ;
#122 = ORIENTED_EDGE ( 'NONE', *, *, #51, .F. ) ;
#123 = VERTEX_POINT ( 'NONE', #172 ) ;
#124 = CARTESIAN_POINT ( 'NONE',  ( 3.000000000000001776, 0.000000000000000000, 0.000000000000000000 ) ) ;
#125 = PRODUCT_DEFINITION_FORMATION_WITH_SPECIFIED_SOURCE ( 'ANY', '', #113, .NOT_KNOWN. ) ;
#126 = DIRECTION ( 'NONE',  ( -1.000000000000000000, 0.000000000000000000, -0.000000000000000000 ) ) ;
#127 = FACE_OUTER_BOUND ( 'NONE', #109, .T. ) ;
#128 = CC_DESIGN_PERSON_AND_ORGANIZATION_ASSIGNMENT ( #149, #108, ( #125 ) ) ;
#129 = CARTESIAN_POINT ( 'NONE',  ( -3.000000000000000000, 0.000000000000000000, 0.000000000000000000 ) ) ;
#130 = DIRECTION ( 'NONE',  ( 1.000000000000000000, 0.000000000000000000, 0.000000000000000000 ) ) ;
#131 = DIRECTION ( 'NONE',  ( -1.000000000000000000, -0.000000000000000000, -0.000000000000000000 ) ) ;
#132 = APPROVAL_STATUS ( 'not_yet_approved' ) ;
#133 = DATE_TIME_ROLE ( 'classification_date' ) ;
#134 = DATE_AND_TIME ( #165, #144 ) ;
#135 = ORIENTED_EDGE ( 'NONE', *, *, #100, .F. ) ;
#136 = PLANE ( 'NONE',  #75 ) ;
#137 = APPROVAL_PERSON_ORGANIZATION ( #81, #13, #147 ) ;
#138 = FACE_OUTER_BOUND ( 'NONE', #9, .T. ) ;
#139 = CYLINDRICAL_SURFACE ( 'NONE', #87, 12.69999999999999929 ) ;
#140 = PLANE ( 'NONE',  #145 ) ;
#141 = PRODUCT_DEFINITION_SHAPE ( 'NONE', 'NONE',  #19 ) ;
#142 = DIRECTION ( 'NONE',  ( 0.000000000000000000, 0.000000000000000000, 1.000000000000000000 ) ) ;
#143 = ADVANCED_BREP_SHAPE_REPRESENTATION ( 'Q-OZHWP-R2-25.4-780-M', ( #63, #83 ), #11 ) ;
#144 = LOCAL_TIME ( 17, 19, 32.00000000000000000, #32 ) ;
#145 = AXIS2_PLACEMENT_3D ( 'NONE', #91, #173, #26 ) ;
#146 = CALENDAR_DATE ( 2020, 22, 12 ) ;
#147 = APPROVAL_ROLE ( '' ) ;
#148 = ADVANCED_FACE ( 'NONE', ( #127 ), #140, .F. ) ;
#149 = PERSON_AND_ORGANIZATION ( #58, #27 ) ;
#150 = AXIS2_PLACEMENT_3D ( 'NONE', #104, #161, #92 ) ;
#151 = LOCAL_TIME ( 17, 19, 32.00000000000000000, #1 ) ;
#152 = APPLICATION_PROTOCOL_DEFINITION ( 'international standard', 'config_control_design', 1994, #153 ) ;
#153 = APPLICATION_CONTEXT ( 'configuration controlled 3d designs of mechanical parts and assemblies' ) ;
#154 = ORIENTED_EDGE ( 'NONE', *, *, #31, .T. ) ;
#155 = DIRECTION ( 'NONE',  ( -0.000000000000000000, 0.000000000000000000, 1.000000000000000000 ) ) ;
#156 = VECTOR ( 'NONE', #160, 1000.000000000000000 ) ;
#157 = CARTESIAN_POINT ( 'NONE',  ( -3.000000000000000000, 0.000000000000000000, 12.69999999999999929 ) ) ;
#158 = ADVANCED_FACE ( 'NONE', ( #138 ), #50, .T. ) ;
#159 = CARTESIAN_POINT ( 'NONE',  ( -3.000000000000000000, 0.000000000000000000, 0.000000000000000000 ) ) ;
#160 = DIRECTION ( 'NONE',  ( -1.000000000000000000, -0.000000000000000000, -0.000000000000000000 ) ) ;
#161 = DIRECTION ( 'NONE',  ( -1.000000000000000000, -0.000000000000000000, -0.000000000000000000 ) ) ;
#162 = CALENDAR_DATE ( 2020, 22, 12 ) ;
#163 = AXIS2_PLACEMENT_3D ( 'NONE', #103, #37, #77 ) ;
#164 = PERSON_AND_ORGANIZATION ( #58, #27 ) ;
#165 = CALENDAR_DATE ( 2020, 22, 12 ) ;
#166 = EDGE_LOOP ( 'NONE', ( #73, #167, #122, #33 ) ) ;
#167 = ORIENTED_EDGE ( 'NONE', *, *, #100, .T. ) ;
#168 = ADVANCED_FACE ( 'NONE', ( #78 ), #139, .T. ) ;
#169 = CIRCLE ( 'NONE', #94, 12.69999999999999929 ) ;
#170 = LOCAL_TIME ( 17, 19, 32.00000000000000000, #66 ) ;
#171 = CC_DESIGN_DATE_AND_TIME_ASSIGNMENT ( #45, #133, ( #65 ) ) ;
#172 = CARTESIAN_POINT ( 'NONE',  ( 3.000000000000001776, 1.555301434917138433E-15, -12.69999999999999929 ) ) ;
#173 = DIRECTION ( 'NONE',  ( 1.000000000000000000, 0.000000000000000000, 0.000000000000000000 ) ) ;
#174 = CC_DESIGN_PERSON_AND_ORGANIZATION_ASSIGNMENT ( #164, #107, ( #19 ) ) ;
#175 = APPLICATION_PROTOCOL_DEFINITION ( 'international standard', 'config_control_design', 1994, #55 ) ;
ENDSEC;
END-ISO-10303-21;
